999
FreeCAD v0.19 24291 (Git)
  0
SECTION
  2
HEADER
  9
$ACADVER
  1
AC1014
  9
$ACADMAINTVER
 70
     9
  9
$DWGCODEPAGE
  3
ANSI_1252
  9
$TEXTSTYLE
  7
STANDARD
  9
$DIMSTYLE
  2
STANDARD
  9
$DIMTXSTY
  7
STANDARD
  9
$CMLSTYLE
  2
STANDARD
  9
$PEXTMAX
 10
50
 20
50
 30
50
  9
$PEXTMIN
 10
0
 20
0
 30
0
  9
$HANDSEED
  5
FFFF
  0
ENDSEC
  0
SECTION
  2
CLASSES
  0
CLASS
  1
ACDBDICTIONARYWDFLT
  2
AcDbDictionaryWithDefault
  3
ObjectDBX Classes
 90
        0
280
     0
281
     0
  0
CLASS
  1
XRECORD
  2
AcDbXrecord
  3
ObjectDBX Classes
 90
        0
280
     0
281
     0
  0
CLASS
  1
LWPOLYLINE
  2
AcDbPolyline
  3
ObjectDBX Classes
 90
        0
280
     0
281
     1
  0
ENDSEC
  0
SECTION
  2
TABLES
  0
TABLE
  2
VPORT
  5
20
330
0
100
AcDbSymbolTable
 70
     1
  0
VPORT
  5
21
330
20
100
AcDbSymbolTableRecord
100
AcDbViewportTableRecord
  2
*ACTIVE
 70
     0
  0
ENDTAB
  0
TABLE
  2
LTYPE
  5
22
330
0
100
AcDbSymbolTable
 70
     1
  0
LTYPE
  5
23
330
21
100
AcDbSymbolTableRecord
100
AcDbLinetypeTableRecord
  2
BYBLOCK
 70
     0
  3

 72
    65
 73
     0
 40
0.0
  0
LTYPE
  5
24
330
21
100
AcDbSymbolTableRecord
100
AcDbLinetypeTableRecord
  2
BYLAYER
 70
     0
  3

 72
    65
 73
     0
 40
0.0
  0
LTYPE
  5
25
330
21
100
AcDbSymbolTableRecord
100
AcDbLinetypeTableRecord
  2
CONTINUOUS
 70
     0
  3
Solid line
 72
    65
 73
     0
 40
0.0
  0
ENDTAB
  0
TABLE
  2
LAYER
  5
A98
330
0
100
AcDbSymbolTable
 70
3
  0
LAYER
  5
A99
330
A98
100
AcDbSymbolTableRecord
100
AcDbLayerTableRecord
  2
0
 70
   0
 62
   7
  6
CONTINUOUS
  0
LAYER
  5
A9A
330
A98
100
AcDbSymbolTableRecord
100
AcDbLayerTableRecord
  2
none
 70
    0
 62
    7
  6
CONTINUOUS
  0
LAYER
  5
A9B
330
A98
100
AcDbSymbolTableRecord
100
AcDbLayerTableRecord
  2
Solid
 70
    0
 62
    7
  6
CONTINUOUS
  0
ENDTAB
  0
TABLE
  2
STYLE
  5
70
330
0
100
AcDbSymbolTable
 70
     2
  0
STYLE
  5
71
330
70
100
AcDbSymbolTableRecord
100
AcDbTextStyleTableRecord
  2
STANDARD
 70
     0
 40
0.0
 41
1.0
 50
0.0
 71
     0
 42
2.5
  3
arial.ttf
  4

  0
STYLE
  5
72
330
70
100
AcDbSymbolTableRecord
100
AcDbTextStyleTableRecord
  2
ANNOTATIVE
 70
     0
 40
0.0
 41
1.0
 50
0.0
 71
     0
 42
2.5
  3
arial.ttf
  4

  0
ENDTAB
  0
TABLE
  2
VIEW
  5
73
330
0
100
AcDbSymbolTable
 70
     0
  0
ENDTAB
  0
TABLE
  2
UCS
  5
74
330
0
100
AcDbSymbolTable
 70
     0
  0
ENDTAB
  0
TABLE
  2
APPID
  5
75
330
0
100
AcDbSymbolTable
 70
     2
  0
APPID
  5
76
330
75
100
AcDbSymbolTableRecord
100
AcDbRegAppTableRecord
  2
ACAD
 70
     0
  0
APPID
  5
77
330
75
100
AcDbSymbolTableRecord
100
AcDbRegAppTableRecord
  2
ACADANNOTATIVE
 70
     0
  0
ENDTAB
  0
TABLE
  2
DIMSTYLE
  5
78
330
0
100
AcDbSymbolTable
 70
     2
  0
DIMSTYLE
105
79
330
78
100
AcDbSymbolTableRecord
100
AcDbDimStyleTableRecord
  2
STANDARD
 70
     0
  3

  4

  5

  6

  7

 40
0.0
 41
2.5
 42
0.625
 43
3.75
 44
1.25
 45
0.0
 46
0.0
 47
0.0
 48
0.0
140
2.5
141
2.5
142
0.0
143
0.03937007874016
144
1.0
145
0.0
146
1.0
147
0.625
 71
     0
 72
     0
 73
     0
 74
     0
 75
     0
 76
     0
 77
     1
 78
     8
170
     0
171
     3
172
     1
173
     0
174
     0
175
     0
176
     0
177
     0
178
     0
270
     2
271
     2
272
     2
273
     2
274
     3
340
71
275
     0
280
     0
281
     0
282
     0
283
     0
284
     8
285
     0
286
     0
287
     3
288
     0
  0
ENDTAB
  0
TABLE
  2
BLOCK_RECORD
  5
A01
330
0
100
AcDbSymbolTable
  70
5
  0
BLOCK_RECORD
  5
A02
330
A01
100
AcDbSymbolTableRecord
100
AcDbBlockTableRecord
  2
*MODEL_SPACE
  0
BLOCK_RECORD
  5
A03
330
A01
100
AcDbSymbolTableRecord
100
AcDbBlockTableRecord
  2
*PAPER_SPACE
  0
ENDTAB
  0
ENDSEC
  0
SECTION
  2
BLOCKS
  0
BLOCK
  5
A04
330
A02
100
AcDbEntity
  8
0
100
AcDbBlockBegin
  2
*MODEL_SPACE
 70
   0
 10
0
 20
0
 30
0
  3
*MODEL_SPACE
  1
 
  0
ENDBLK
  5
A05
330
A02
100
AcDbEntity
  8
0
100
AcDbBlockEnd
  0
BLOCK
  5
A06
330
A03
100
AcDbEntity
 67
1
  8
0
100
AcDbBlockBegin
  2
*PAPER_SPACE
 70
   0
 10
0
 20
0
 30
0
  3
*PAPER_SPACE
  1
 
  0
ENDBLK
  5
A07
330
A03
100
AcDbEntity
 67
    1
  8
0
100
AcDbBlockEnd
  0
ENDSEC
  0
SECTION
  2
ENTITIES
  0
LINE
  5
A08
330
A02
100
AcDbEntity
  8
Solid
100
AcDbLine
 10
0
 20
-0.3
 30
-51.5899
 11
0
 21
2
 31
-49.5899
  0
ARC
  5
A09
330
A02
100
AcDbEntity
  8
Solid
100
AcDbCircle
 10
0
 20
2
 30
-53.3399
 40
4.59243e-16
100
AcDbArc
 50
180
 51
0
  0
LINE
  5
A0A
330
A02
100
AcDbEntity
  8
Solid
100
AcDbLine
 10
2.14313e-16
 20
-0.3
 30
-55.0899
 11
4.59243e-16
 21
2
 31
-57.0899
  0
ARC
  5
A0B
330
A02
100
AcDbEntity
  8
Solid
100
AcDbCircle
 10
0
 20
-0.3
 30
-53.3399
 40
0
100
AcDbArc
 50
180
 51
0
  0
LINE
  5
A0C
330
A02
100
AcDbEntity
  8
Solid
100
AcDbLine
 10
0
 20
-0.3
 30
55.0899
 11
0
 21
2
 31
57.0899
  0
ARC
  5
A0D
330
A02
100
AcDbEntity
  8
Solid
100
AcDbCircle
 10
0
 20
2
 30
53.3399
 40
4.59243e-16
100
AcDbArc
 50
180
 51
0
  0
LINE
  5
A0E
330
A02
100
AcDbEntity
  8
Solid
100
AcDbLine
 10
2.14313e-16
 20
-0.3
 30
51.5899
 11
4.59243e-16
 21
2
 31
49.5899
  0
ARC
  5
A0F
330
A02
100
AcDbEntity
  8
Solid
100
AcDbCircle
 10
0
 20
-0.3
 30
53.3399
 40
0
100
AcDbArc
 50
180
 51
0
  0
LINE
  5
A10
330
A02
100
AcDbEntity
  8
Solid
100
AcDbLine
 10
0
 20
-0.5
 30
-51.5899
 11
0
 21
-0.3
 31
-51.5899
  0
ARC
  5
A11
330
A02
100
AcDbEntity
  8
Solid
100
AcDbCircle
 10
0
 20
-0.3
 30
-53.3399
 40
0
100
AcDbArc
 50
180
 51
0
  0
LINE
  5
A12
330
A02
100
AcDbEntity
  8
Solid
100
AcDbLine
 10
2.14313e-16
 20
-0.5
 30
-55.0899
 11
2.14313e-16
 21
-0.3
 31
-55.0899
  0
ARC
  5
A13
330
A02
100
AcDbEntity
  8
Solid
100
AcDbCircle
 10
0
 20
-0.5
 30
-53.3399
 40
2.14313e-16
100
AcDbArc
 50
180
 51
0
  0
LINE
  5
A14
330
A02
100
AcDbEntity
  8
Solid
100
AcDbLine
 10
0
 20
-0.5
 30
55.0899
 11
0
 21
-0.3
 31
55.0899
  0
ARC
  5
A15
330
A02
100
AcDbEntity
  8
Solid
100
AcDbCircle
 10
0
 20
-0.3
 30
53.3399
 40
0
100
AcDbArc
 50
180
 51
0
  0
LINE
  5
A16
330
A02
100
AcDbEntity
  8
Solid
100
AcDbLine
 10
2.14313e-16
 20
-0.5
 30
51.5899
 11
2.14313e-16
 21
-0.3
 31
51.5899
  0
ARC
  5
A17
330
A02
100
AcDbEntity
  8
Solid
100
AcDbCircle
 10
0
 20
-0.5
 30
53.3399
 40
2.14313e-16
100
AcDbArc
 50
180
 51
0
  0
LINE
  5
A18
330
A02
100
AcDbEntity
  8
Solid
100
AcDbLine
 10
-14.25
 20
-0.5
 30
45.8617
 11
14.25
 21
-0.5
 31
45.8617
  0
SPLINE
  5
A19
330
A02
100
AcDbEntity
  8
Solid
100
AcDbSpline
210
0
220
0
230
1
 70
8
 71
3
 72
17
 73
13
 74
0
 40
2.36508e-17
 40
2.36508e-17
 40
2.36508e-17
 40
2.36508e-17
 40
0.000184014
 40
0.000184014
 40
0.000184014
 40
0.000368028
 40
0.000368028
 40
0.000368028
 40
0.000736055
 40
0.000736055
 40
0.000736055
 40
0.00147211
 40
0.00147211
 40
0.00147211
 40
0.00147211
 10
-14.25
 20
-0.5
 30
45.8617
 10
-14.1876
 20
-0.5
 30
45.8617
 10
-14.13
 20
-0.512165
 30
45.8337
 10
-14.0839
 20
-0.528379
 30
45.7961
 10
-14.0386
 20
-0.54506
 30
45.7575
 10
-14.0008
 20
-0.56407
 30
45.7135
 10
-13.9705
 20
-0.585409
 30
45.6639
 10
-13.9105
 20
-0.627805
 30
45.5655
 10
-13.8657
 20
-0.672427
 30
45.4615
 10
-13.8362
 20
-0.719276
 30
45.3518
 10
-13.7762
 20
-0.811824
 30
45.1352
 10
-13.7474
 20
-0.905399
 30
44.9142
 10
-13.75
 20
-1
 30
44.6889
  0
ARC
  5
A1A
330
A02
100
AcDbEntity
  8
Solid
100
AcDbCircle
 10
-13.75
 20
105.45
 30
1.73472e-14
 40
106.45
100
AcDbArc
 50
-90
 51
-90
  0
SPLINE
  5
A1B
330
A02
100
AcDbEntity
  8
Solid
100
AcDbSpline
210
0
220
0
230
1
 70
8
 71
3
 72
17
 73
13
 74
0
 40
4.33681e-19
 40
4.33681e-19
 40
4.33681e-19
 40
4.33681e-19
 40
0.00072627
 40
0.00072627
 40
0.00072627
 40
0.0010894
 40
0.0010894
 40
0.0010894
 40
0.00127097
 40
0.00127097
 40
0.00127097
 40
0.00145254
 40
0.00145254
 40
0.00145254
 40
0.00145254
 10
-13.75
 20
-1
 30
-44.6889
 10
-13.7473
 20
-0.905419
 30
-44.9142
 10
-13.7762
 20
-0.811685
 30
-45.1355
 10
-13.8366
 20
-0.718798
 30
-45.3529
 10
-13.8664
 20
-0.671698
 30
-45.4632
 10
-13.9113
 20
-0.62708
 30
-45.5672
 10
-13.9712
 20
-0.584943
 30
-45.665
 10
-14.0014
 20
-0.563727
 30
-45.7143
 10
-14.0392
 20
-0.54481
 30
-45.7581
 10
-14.0845
 20
-0.528191
 30
-45.7966
 10
-14.1304
 20
-0.512082
 30
-45.8338
 10
-14.1879
 20
-0.5
 30
-45.8617
 10
-14.25
 20
-0.5
 30
-45.8617
  0
LINE
  5
A1C
330
A02
100
AcDbEntity
  8
Solid
100
AcDbLine
 10
14.25
 20
-0.5
 30
-45.8617
 11
-14.25
 21
-0.5
 31
-45.8617
  0
SPLINE
  5
A1D
330
A02
100
AcDbEntity
  8
Solid
100
AcDbSpline
210
0
220
0
230
1
 70
8
 71
3
 72
17
 73
13
 74
0
 40
2.69932e-17
 40
2.69932e-17
 40
2.69932e-17
 40
2.69932e-17
 40
0.000184014
 40
0.000184014
 40
0.000184014
 40
0.000368028
 40
0.000368028
 40
0.000368028
 40
0.000736055
 40
0.000736055
 40
0.000736055
 40
0.00147211
 40
0.00147211
 40
0.00147211
 40
0.00147211
 10
14.25
 20
-0.5
 30
-45.8617
 10
14.1876
 20
-0.5
 30
-45.8617
 10
14.13
 20
-0.512165
 30
-45.8337
 10
14.0839
 20
-0.528379
 30
-45.7961
 10
14.0386
 20
-0.54506
 30
-45.7575
 10
14.0008
 20
-0.56407
 30
-45.7135
 10
13.9705
 20
-0.585409
 30
-45.6639
 10
13.9105
 20
-0.627805
 30
-45.5655
 10
13.8657
 20
-0.672427
 30
-45.4615
 10
13.8362
 20
-0.719276
 30
-45.3518
 10
13.7762
 20
-0.811824
 30
-45.1352
 10
13.7474
 20
-0.905399
 30
-44.9142
 10
13.75
 20
-1
 30
-44.6889
  0
ARC
  5
A1E
330
A02
100
AcDbEntity
  8
Solid
100
AcDbCircle
 10
13.75
 20
105.45
 30
1.73472e-14
 40
106.45
100
AcDbArc
 50
-90
 51
-90
  0
SPLINE
  5
A1F
330
A02
100
AcDbEntity
  8
Solid
100
AcDbSpline
210
0
220
0
230
1
 70
8
 71
3
 72
17
 73
13
 74
0
 40
0
 40
0
 40
0
 40
0
 40
0.00072627
 40
0.00072627
 40
0.00072627
 40
0.0010894
 40
0.0010894
 40
0.0010894
 40
0.00127097
 40
0.00127097
 40
0.00127097
 40
0.00145254
 40
0.00145254
 40
0.00145254
 40
0.00145254
 10
13.75
 20
-1
 30
44.6889
 10
13.7473
 20
-0.905419
 30
44.9142
 10
13.7762
 20
-0.811685
 30
45.1355
 10
13.8366
 20
-0.718798
 30
45.3529
 10
13.8664
 20
-0.671698
 30
45.4632
 10
13.9113
 20
-0.62708
 30
45.5672
 10
13.9712
 20
-0.584943
 30
45.665
 10
14.0014
 20
-0.563727
 30
45.7143
 10
14.0392
 20
-0.54481
 30
45.7581
 10
14.0845
 20
-0.528191
 30
45.7966
 10
14.1304
 20
-0.512082
 30
45.8338
 10
14.1879
 20
-0.5
 30
45.8617
 10
14.25
 20
-0.5
 30
45.8617
  0
ARC
  5
A20
330
A02
100
AcDbEntity
  8
Solid
100
AcDbCircle
 10
0
 20
2
 30
53.3399
 40
4.59243e-16
100
AcDbArc
 50
180
 51
0
  0
ARC
  5
A21
330
A02
100
AcDbEntity
  8
Solid
100
AcDbCircle
 10
0
 20
2
 30
53.3399
 40
0
100
AcDbArc
 50
0
 51
0
  0
ARC
  5
A22
330
A02
100
AcDbEntity
  8
Solid
100
AcDbCircle
 10
0
 20
2
 30
-53.3399
 40
4.59243e-16
100
AcDbArc
 50
180
 51
0
  0
ARC
  5
A23
330
A02
100
AcDbEntity
  8
Solid
100
AcDbCircle
 10
0
 20
2
 30
-53.3399
 40
0
100
AcDbArc
 50
0
 51
0
  0
LINE
  5
A24
330
A02
100
AcDbEntity
  8
Solid
100
AcDbLine
 10
10.75
 20
2
 30
46.6798
 11
-10.75
 21
2
 31
46.6798
  0
SPLINE
  5
A25
330
A02
100
AcDbEntity
  8
Solid
100
AcDbSpline
210
0
220
0
230
1
 70
8
 71
3
 72
17
 73
13
 74
0
 40
0
 40
0
 40
0
 40
0
 40
0.000548705
 40
0.000548705
 40
0.000548705
 40
0.00109741
 40
0.00109741
 40
0.00109741
 40
0.00219482
 40
0.00219482
 40
0.00219482
 40
0.00438964
 40
0.00438964
 40
0.00438964
 40
0.00438964
 10
-10.75
 20
2
 30
46.6798
 10
-10.9369
 20
2
 30
46.6803
 10
-11.1102
 20
2
 30
46.5917
 10
-11.2479
 20
2
 30
46.4718
 10
-11.3872
 20
2
 30
46.3517
 10
-11.4973
 20
2
 30
46.2031
 10
-11.5911
 20
2
 30
46.0464
 10
-11.777
 20
2
 30
45.7333
 10
-11.9003
 20
2
 30
45.3869
 10
-11.9952
 20
2
 30
45.0353
 10
-12.1801
 20
2
 30
44.3334
 10
-12.2479
 20
2
 30
43.6153
 10
-12.25
 20
2
 30
42.8882
  0
LINE
  5
A26
330
A02
100
AcDbEntity
  8
Solid
100
AcDbLine
 10
-12.25
 20
2
 30
42.8882
 11
-12.25
 21
2
 31
-42.8882
  0
SPLINE
  5
A27
330
A02
100
AcDbEntity
  8
Solid
100
AcDbSpline
210
0
220
0
230
1
 70
8
 71
3
 72
17
 73
13
 74
0
 40
0
 40
0
 40
0
 40
0
 40
0.0021664
 40
0.0021664
 40
0.0021664
 40
0.0032496
 40
0.0032496
 40
0.0032496
 40
0.00379121
 40
0.00379121
 40
0.00379121
 40
0.00433281
 40
0.00433281
 40
0.00433281
 40
0.00433281
 10
-12.25
 20
2
 30
-42.8882
 10
-12.2478
 20
2
 30
-43.6153
 10
-12.1802
 20
2
 30
-44.3346
 10
-11.9941
 20
2
 30
-45.0395
 10
-11.8993
 20
2
 30
-45.3905
 10
-11.7747
 20
2
 30
-45.7382
 10
-11.589
 20
2
 30
-46.0499
 10
-11.4958
 20
2
 30
-46.2052
 10
-11.385
 20
2
 30
-46.3541
 10
-11.2462
 20
2
 30
-46.4732
 10
-11.1083
 20
2
 30
-46.5925
 10
-10.9377
 20
2
 30
-46.6797
 10
-10.75
 20
2
 30
-46.6798
  0
LINE
  5
A28
330
A02
100
AcDbEntity
  8
Solid
100
AcDbLine
 10
-10.75
 20
2
 30
-46.6798
 11
10.75
 21
2
 31
-46.6798
  0
SPLINE
  5
A29
330
A02
100
AcDbEntity
  8
Solid
100
AcDbSpline
210
0
220
0
230
1
 70
8
 71
3
 72
17
 73
13
 74
0
 40
0
 40
0
 40
0
 40
0
 40
0.000548705
 40
0.000548705
 40
0.000548705
 40
0.00109741
 40
0.00109741
 40
0.00109741
 40
0.00219482
 40
0.00219482
 40
0.00219482
 40
0.00438964
 40
0.00438964
 40
0.00438964
 40
0.00438964
 10
10.75
 20
2
 30
-46.6798
 10
10.9369
 20
2
 30
-46.6803
 10
11.1102
 20
2
 30
-46.5917
 10
11.2479
 20
2
 30
-46.4718
 10
11.3872
 20
2
 30
-46.3517
 10
11.4973
 20
2
 30
-46.2031
 10
11.5911
 20
2
 30
-46.0464
 10
11.777
 20
2
 30
-45.7333
 10
11.9003
 20
2
 30
-45.3869
 10
11.9952
 20
2
 30
-45.0353
 10
12.1801
 20
2
 30
-44.3334
 10
12.2479
 20
2
 30
-43.6153
 10
12.25
 20
2
 30
-42.8882
  0
LINE
  5
A2A
330
A02
100
AcDbEntity
  8
Solid
100
AcDbLine
 10
12.25
 20
2
 30
-42.8882
 11
12.25
 21
2
 31
42.8882
  0
SPLINE
  5
A2B
330
A02
100
AcDbEntity
  8
Solid
100
AcDbSpline
210
0
220
0
230
1
 70
8
 71
3
 72
17
 73
13
 74
0
 40
0
 40
0
 40
0
 40
0
 40
0.0021664
 40
0.0021664
 40
0.0021664
 40
0.0032496
 40
0.0032496
 40
0.0032496
 40
0.00379121
 40
0.00379121
 40
0.00379121
 40
0.00433281
 40
0.00433281
 40
0.00433281
 40
0.00433281
 10
12.25
 20
2
 30
42.8882
 10
12.2478
 20
2
 30
43.6153
 10
12.1802
 20
2
 30
44.3346
 10
11.9941
 20
2
 30
45.0395
 10
11.8993
 20
2
 30
45.3905
 10
11.7747
 20
2
 30
45.7382
 10
11.589
 20
2
 30
46.0499
 10
11.4958
 20
2
 30
46.2052
 10
11.385
 20
2
 30
46.3541
 10
11.2462
 20
2
 30
46.4732
 10
11.1083
 20
2
 30
46.5925
 10
10.9377
 20
2
 30
46.6797
 10
10.75
 20
2
 30
46.6798
  0
LINE
  5
A2C
330
A02
100
AcDbEntity
  8
Solid
100
AcDbLine
 10
20
 20
2
 30
60
 11
20
 21
2
 31
-60
  0
LINE
  5
A2D
330
A02
100
AcDbEntity
  8
Solid
100
AcDbLine
 10
20
 20
2
 30
-60
 11
-20
 21
2
 31
-60
  0
LINE
  5
A2E
330
A02
100
AcDbEntity
  8
Solid
100
AcDbLine
 10
-20
 20
2
 30
-60
 11
-20
 21
2
 31
60
  0
LINE
  5
A2F
330
A02
100
AcDbEntity
  8
Solid
100
AcDbLine
 10
-20
 20
2
 30
60
 11
20
 21
2
 31
60
  0
LINE
  5
A30
330
A02
100
AcDbEntity
  8
Solid
100
AcDbLine
 10
20
 20
2
 30
60
 11
20
 21
-0.5
 31
60
  0
LINE
  5
A31
330
A02
100
AcDbEntity
  8
Solid
100
AcDbLine
 10
20
 20
-0.5
 30
-60
 11
20
 21
-0.5
 31
60
  0
LINE
  5
A32
330
A02
100
AcDbEntity
  8
Solid
100
AcDbLine
 10
20
 20
2
 30
-60
 11
20
 21
-0.5
 31
-60
  0
LINE
  5
A33
330
A02
100
AcDbEntity
  8
Solid
100
AcDbLine
 10
20
 20
2
 30
60
 11
20
 21
2
 31
-60
  0
LINE
  5
A34
330
A02
100
AcDbEntity
  8
Solid
100
AcDbLine
 10
20
 20
2
 30
-60
 11
20
 21
-0.5
 31
-60
  0
LINE
  5
A35
330
A02
100
AcDbEntity
  8
Solid
100
AcDbLine
 10
-20
 20
-0.5
 30
-60
 11
20
 21
-0.5
 31
-60
  0
LINE
  5
A36
330
A02
100
AcDbEntity
  8
Solid
100
AcDbLine
 10
-20
 20
2
 30
-60
 11
-20
 21
-0.5
 31
-60
  0
LINE
  5
A37
330
A02
100
AcDbEntity
  8
Solid
100
AcDbLine
 10
20
 20
2
 30
-60
 11
-20
 21
2
 31
-60
  0
LINE
  5
A38
330
A02
100
AcDbEntity
  8
Solid
100
AcDbLine
 10
-20
 20
2
 30
-60
 11
-20
 21
-0.5
 31
-60
  0
LINE
  5
A39
330
A02
100
AcDbEntity
  8
Solid
100
AcDbLine
 10
-20
 20
-0.5
 30
60
 11
-20
 21
-0.5
 31
-60
  0
LINE
  5
A3A
330
A02
100
AcDbEntity
  8
Solid
100
AcDbLine
 10
-20
 20
2
 30
60
 11
-20
 21
-0.5
 31
60
  0
LINE
  5
A3B
330
A02
100
AcDbEntity
  8
Solid
100
AcDbLine
 10
-20
 20
2
 30
-60
 11
-20
 21
2
 31
60
  0
LINE
  5
A3C
330
A02
100
AcDbEntity
  8
Solid
100
AcDbLine
 10
-20
 20
2
 30
60
 11
-20
 21
-0.5
 31
60
  0
LINE
  5
A3D
330
A02
100
AcDbEntity
  8
Solid
100
AcDbLine
 10
20
 20
-0.5
 30
60
 11
-20
 21
-0.5
 31
60
  0
LINE
  5
A3E
330
A02
100
AcDbEntity
  8
Solid
100
AcDbLine
 10
20
 20
2
 30
60
 11
20
 21
-0.5
 31
60
  0
LINE
  5
A3F
330
A02
100
AcDbEntity
  8
Solid
100
AcDbLine
 10
-20
 20
2
 30
60
 11
20
 21
2
 31
60
  0
ARC
  5
A40
330
A02
100
AcDbEntity
  8
Solid
100
AcDbCircle
 10
-11.75
 20
105.45
 30
1.73472e-14
 40
103.95
100
AcDbArc
 50
-90
 51
-90
  0
LINE
  5
A41
330
A02
100
AcDbEntity
  8
Solid
100
AcDbLine
 10
-11.75
 20
1.5
 30
-42.8882
 11
-11.75
 21
1.5
 31
42.8882
  0
ARC
  5
A42
330
A02
100
AcDbEntity
  8
Solid
100
AcDbCircle
 10
11.75
 20
105.45
 30
1.73472e-14
 40
103.95
100
AcDbArc
 50
-90
 51
-90
  0
LINE
  5
A43
330
A02
100
AcDbEntity
  8
Solid
100
AcDbLine
 10
11.75
 20
1.5
 30
42.8882
 11
11.75
 21
1.5
 31
-42.8882
  0
LINE
  5
A44
330
A02
100
AcDbEntity
  8
Solid
100
AcDbLine
 10
-10.75
 20
1.95612
 30
46.4749
 11
10.75
 21
1.95612
 31
46.4749
  0
ARC
  5
A45
330
A02
100
AcDbEntity
  8
Solid
100
AcDbCircle
 10
-10.75
 20
105.45
 30
1.73472e-14
 40
103.494
100
AcDbArc
 50
-90
 51
-90
  0
LINE
  5
A46
330
A02
100
AcDbEntity
  8
Solid
100
AcDbLine
 10
10.75
 20
1.95612
 30
-46.4749
 11
-10.75
 21
1.95612
 31
-46.4749
  0
ARC
  5
A47
330
A02
100
AcDbEntity
  8
Solid
100
AcDbCircle
 10
10.75
 20
105.45
 30
1.73472e-14
 40
103.494
100
AcDbArc
 50
-90
 51
-90
  0
ARC
  5
A48
330
A02
100
AcDbEntity
  8
Solid
100
AcDbCircle
 10
0
 20
-0.5
 30
-53.3399
 40
2.14313e-16
100
AcDbArc
 50
180
 51
0
  0
ARC
  5
A49
330
A02
100
AcDbEntity
  8
Solid
100
AcDbCircle
 10
0
 20
-0.5
 30
-53.3399
 40
0
100
AcDbArc
 50
0
 51
0
  0
ARC
  5
A4A
330
A02
100
AcDbEntity
  8
Solid
100
AcDbCircle
 10
0
 20
-0.5
 30
53.3399
 40
2.14313e-16
100
AcDbArc
 50
180
 51
0
  0
ARC
  5
A4B
330
A02
100
AcDbEntity
  8
Solid
100
AcDbCircle
 10
0
 20
-0.5
 30
53.3399
 40
0
100
AcDbArc
 50
0
 51
0
  0
LINE
  5
A4C
330
A02
100
AcDbEntity
  8
Solid
100
AcDbLine
 10
-14.25
 20
-0.5
 30
45.8617
 11
14.25
 21
-0.5
 31
45.8617
  0
LINE
  5
A4D
330
A02
100
AcDbEntity
  8
Solid
100
AcDbLine
 10
14.25
 20
-0.5
 30
45.8617
 11
14.25
 21
-0.5
 31
-45.8617
  0
LINE
  5
A4E
330
A02
100
AcDbEntity
  8
Solid
100
AcDbLine
 10
14.25
 20
-0.5
 30
-45.8617
 11
-14.25
 21
-0.5
 31
-45.8617
  0
LINE
  5
A4F
330
A02
100
AcDbEntity
  8
Solid
100
AcDbLine
 10
-14.25
 20
-0.5
 30
-45.8617
 11
-14.25
 21
-0.5
 31
45.8617
  0
LINE
  5
A50
330
A02
100
AcDbEntity
  8
Solid
100
AcDbLine
 10
-20
 20
-0.5
 30
-60
 11
20
 21
-0.5
 31
-60
  0
LINE
  5
A51
330
A02
100
AcDbEntity
  8
Solid
100
AcDbLine
 10
20
 20
-0.5
 30
-60
 11
20
 21
-0.5
 31
60
  0
LINE
  5
A52
330
A02
100
AcDbEntity
  8
Solid
100
AcDbLine
 10
20
 20
-0.5
 30
60
 11
-20
 21
-0.5
 31
60
  0
LINE
  5
A53
330
A02
100
AcDbEntity
  8
Solid
100
AcDbLine
 10
-20
 20
-0.5
 30
60
 11
-20
 21
-0.5
 31
-60
  0
ARC
  5
A54
330
A02
100
AcDbEntity
  8
Solid
100
AcDbCircle
 10
13.75
 20
105.45
 30
1.73472e-14
 40
106.45
100
AcDbArc
 50
-90
 51
-90
  0
LINE
  5
A55
330
A02
100
AcDbEntity
  8
Solid
100
AcDbLine
 10
13.75
 20
-1
 30
-44.6889
 11
13.75
 21
-1
 31
44.6889
  0
ARC
  5
A56
330
A02
100
AcDbEntity
  8
Solid
100
AcDbCircle
 10
-13.75
 20
105.45
 30
1.73472e-14
 40
106.45
100
AcDbArc
 50
-90
 51
-90
  0
LINE
  5
A57
330
A02
100
AcDbEntity
  8
Solid
100
AcDbLine
 10
-13.75
 20
-1
 30
44.6889
 11
-13.75
 21
-1
 31
-44.6889
  0
SPLINE
  5
A58
330
A02
100
AcDbEntity
  8
Solid
100
AcDbSpline
210
0
220
0
230
1
 70
8
 71
3
 72
20
 73
16
 74
0
 40
1.73472e-18
 40
1.73472e-18
 40
1.73472e-18
 40
1.73472e-18
 40
0.000246909
 40
0.000246909
 40
0.000246909
 40
0.000493818
 40
0.000493818
 40
0.000493818
 40
0.000987635
 40
0.000987635
 40
0.000987635
 40
0.00197527
 40
0.00197527
 40
0.00197527
 40
0.00395054
 40
0.00395054
 40
0.00395054
 40
0.00395054
 10
10.75
 20
1.95612
 30
46.4749
 10
10.8335
 20
1.95612
 30
46.4749
 10
10.9109
 20
1.95124
 30
46.4376
 10
10.975
 20
1.94458
 30
46.3866
 10
11.0383
 20
1.9377
 30
46.3339
 10
11.0928
 20
1.92976
 30
46.273
 10
11.1383
 20
1.92077
 30
46.2039
 10
11.2281
 20
1.90295
 30
46.0671
 10
11.3003
 20
1.88409
 30
45.9217
 10
11.3549
 20
1.86418
 30
45.7679
 10
11.4691
 20
1.82492
 30
45.4643
 10
11.5424
 20
1.78385
 30
45.1447
 10
11.5983
 20
1.74304
 30
44.8246
 10
11.7087
 20
1.66141
 30
44.1843
 10
11.7488
 20
1.58025
 30
43.538
 10
11.75
 20
1.5
 30
42.8882
  0
ARC
  5
A59
330
A02
100
AcDbEntity
  8
Solid
100
AcDbCircle
 10
10.75
 20
105.45
 30
1.73472e-14
 40
103.494
100
AcDbArc
 50
-90
 51
-90
  0
SPLINE
  5
A5A
330
A02
100
AcDbEntity
  8
Solid
100
AcDbSpline
210
0
220
0
230
1
 70
8
 71
3
 72
20
 73
16
 74
0
 40
6.99289e-18
 40
6.99289e-18
 40
6.99289e-18
 40
6.99289e-18
 40
0.00195482
 40
0.00195482
 40
0.00195482
 40
0.00293223
 40
0.00293223
 40
0.00293223
 40
0.00342094
 40
0.00342094
 40
0.00342094
 40
0.00366529
 40
0.00366529
 40
0.00366529
 40
0.00390964
 40
0.00390964
 40
0.00390964
 40
0.00390964
 10
11.75
 20
1.5
 30
-42.8882
 10
11.7488
 20
1.58023
 30
-43.5378
 10
11.7087
 20
1.66131
 30
-44.1835
 10
11.5987
 20
1.74275
 30
-44.8223
 10
11.543
 20
1.78347
 30
-45.1417
 10
11.4701
 20
1.82447
 30
-45.4608
 10
11.356
 20
1.86382
 30
-45.7651
 10
11.3012
 20
1.88381
 30
-45.9196
 10
11.229
 20
1.90273
 30
-46.0654
 10
11.1394
 20
1.92056
 30
-46.2024
 10
11.094
 20
1.92956
 30
-46.2714
 10
11.0397
 20
1.9375
 30
-46.3324
 10
10.9766
 20
1.94441
 30
-46.3853
 10
10.913
 20
1.95108
 30
-46.4364
 10
10.8339
 20
1.95612
 30
-46.4749
 10
10.75
 20
1.95612
 30
-46.4749
  0
ARC
  5
A5B
330
A02
100
AcDbEntity
  8
Solid
100
AcDbCircle
 10
11.75
 20
105.45
 30
1.73472e-14
 40
103.95
100
AcDbArc
 50
-90
 51
-90
  0
SPLINE
  5
A5C
330
A02
100
AcDbEntity
  8
Solid
100
AcDbSpline
210
0
220
0
230
1
 70
8
 71
3
 72
20
 73
16
 74
0
 40
1.73472e-18
 40
1.73472e-18
 40
1.73472e-18
 40
1.73472e-18
 40
0.000246909
 40
0.000246909
 40
0.000246909
 40
0.000493818
 40
0.000493818
 40
0.000493818
 40
0.000987635
 40
0.000987635
 40
0.000987635
 40
0.00197527
 40
0.00197527
 40
0.00197527
 40
0.00395054
 40
0.00395054
 40
0.00395054
 40
0.00395054
 10
-10.75
 20
1.95612
 30
-46.4749
 10
-10.8335
 20
1.95612
 30
-46.4749
 10
-10.9109
 20
1.95124
 30
-46.4376
 10
-10.975
 20
1.94458
 30
-46.3866
 10
-11.0383
 20
1.9377
 30
-46.3339
 10
-11.0928
 20
1.92976
 30
-46.273
 10
-11.1383
 20
1.92077
 30
-46.2039
 10
-11.2281
 20
1.90295
 30
-46.0671
 10
-11.3003
 20
1.88409
 30
-45.9217
 10
-11.3549
 20
1.86418
 30
-45.7679
 10
-11.4691
 20
1.82492
 30
-45.4643
 10
-11.5424
 20
1.78385
 30
-45.1447
 10
-11.5983
 20
1.74304
 30
-44.8246
 10
-11.7087
 20
1.66141
 30
-44.1843
 10
-11.7488
 20
1.58025
 30
-43.538
 10
-11.75
 20
1.5
 30
-42.8882
  0
ARC
  5
A5D
330
A02
100
AcDbEntity
  8
Solid
100
AcDbCircle
 10
-10.75
 20
105.45
 30
1.73472e-14
 40
103.494
100
AcDbArc
 50
-90
 51
-90
  0
SPLINE
  5
A5E
330
A02
100
AcDbEntity
  8
Solid
100
AcDbSpline
210
0
220
0
230
1
 70
8
 71
3
 72
20
 73
16
 74
0
 40
6.99289e-18
 40
6.99289e-18
 40
6.99289e-18
 40
6.99289e-18
 40
0.00195482
 40
0.00195482
 40
0.00195482
 40
0.00293223
 40
0.00293223
 40
0.00293223
 40
0.00342094
 40
0.00342094
 40
0.00342094
 40
0.00366529
 40
0.00366529
 40
0.00366529
 40
0.00390964
 40
0.00390964
 40
0.00390964
 40
0.00390964
 10
-11.75
 20
1.5
 30
42.8882
 10
-11.7488
 20
1.58023
 30
43.5378
 10
-11.7087
 20
1.66131
 30
44.1835
 10
-11.5987
 20
1.74275
 30
44.8223
 10
-11.543
 20
1.78347
 30
45.1417
 10
-11.4701
 20
1.82447
 30
45.4608
 10
-11.356
 20
1.86382
 30
45.7651
 10
-11.3012
 20
1.88381
 30
45.9196
 10
-11.229
 20
1.90273
 30
46.0654
 10
-11.1394
 20
1.92056
 30
46.2024
 10
-11.094
 20
1.92956
 30
46.2714
 10
-11.0397
 20
1.9375
 30
46.3324
 10
-10.9766
 20
1.94441
 30
46.3853
 10
-10.913
 20
1.95108
 30
46.4364
 10
-10.8339
 20
1.95612
 30
46.4749
 10
-10.75
 20
1.95612
 30
46.4749
  0
ARC
  5
A5F
330
A02
100
AcDbEntity
  8
Solid
100
AcDbCircle
 10
-11.75
 20
105.45
 30
1.73472e-14
 40
103.95
100
AcDbArc
 50
-90
 51
-90
  0
LINE
  5
A60
330
A02
100
AcDbEntity
  8
Solid
100
AcDbLine
 10
13.75
 20
-1
 30
-44.6889
 11
13.75
 21
-1
 31
44.6889
  0
SPLINE
  5
A61
330
A02
100
AcDbEntity
  8
Solid
100
AcDbSpline
210
0
220
0
230
1
 70
8
 71
3
 72
17
 73
13
 74
0
 40
0
 40
0
 40
0
 40
0
 40
0.00072627
 40
0.00072627
 40
0.00072627
 40
0.0010894
 40
0.0010894
 40
0.0010894
 40
0.00127097
 40
0.00127097
 40
0.00127097
 40
0.00145254
 40
0.00145254
 40
0.00145254
 40
0.00145254
 10
13.75
 20
-1
 30
44.6889
 10
13.7473
 20
-0.905419
 30
44.9142
 10
13.7762
 20
-0.811685
 30
45.1355
 10
13.8366
 20
-0.718798
 30
45.3529
 10
13.8664
 20
-0.671698
 30
45.4632
 10
13.9113
 20
-0.62708
 30
45.5672
 10
13.9712
 20
-0.584943
 30
45.665
 10
14.0014
 20
-0.563727
 30
45.7143
 10
14.0392
 20
-0.54481
 30
45.7581
 10
14.0845
 20
-0.528191
 30
45.7966
 10
14.1304
 20
-0.512082
 30
45.8338
 10
14.1879
 20
-0.5
 30
45.8617
 10
14.25
 20
-0.5
 30
45.8617
  0
LINE
  5
A62
330
A02
100
AcDbEntity
  8
Solid
100
AcDbLine
 10
14.25
 20
-0.5
 30
45.8617
 11
14.25
 21
-0.5
 31
-45.8617
  0
SPLINE
  5
A63
330
A02
100
AcDbEntity
  8
Solid
100
AcDbSpline
210
0
220
0
230
1
 70
8
 71
3
 72
17
 73
13
 74
0
 40
2.69932e-17
 40
2.69932e-17
 40
2.69932e-17
 40
2.69932e-17
 40
0.000184014
 40
0.000184014
 40
0.000184014
 40
0.000368028
 40
0.000368028
 40
0.000368028
 40
0.000736055
 40
0.000736055
 40
0.000736055
 40
0.00147211
 40
0.00147211
 40
0.00147211
 40
0.00147211
 10
14.25
 20
-0.5
 30
-45.8617
 10
14.1876
 20
-0.5
 30
-45.8617
 10
14.13
 20
-0.512165
 30
-45.8337
 10
14.0839
 20
-0.528379
 30
-45.7961
 10
14.0386
 20
-0.54506
 30
-45.7575
 10
14.0008
 20
-0.56407
 30
-45.7135
 10
13.9705
 20
-0.585409
 30
-45.6639
 10
13.9105
 20
-0.627805
 30
-45.5655
 10
13.8657
 20
-0.672427
 30
-45.4615
 10
13.8362
 20
-0.719276
 30
-45.3518
 10
13.7762
 20
-0.811824
 30
-45.1352
 10
13.7474
 20
-0.905399
 30
-44.9142
 10
13.75
 20
-1
 30
-44.6889
  0
LINE
  5
A64
330
A02
100
AcDbEntity
  8
Solid
100
AcDbLine
 10
-13.75
 20
-1
 30
44.6889
 11
-13.75
 21
-1
 31
-44.6889
  0
SPLINE
  5
A65
330
A02
100
AcDbEntity
  8
Solid
100
AcDbSpline
210
0
220
0
230
1
 70
8
 71
3
 72
17
 73
13
 74
0
 40
4.33681e-19
 40
4.33681e-19
 40
4.33681e-19
 40
4.33681e-19
 40
0.00072627
 40
0.00072627
 40
0.00072627
 40
0.0010894
 40
0.0010894
 40
0.0010894
 40
0.00127097
 40
0.00127097
 40
0.00127097
 40
0.00145254
 40
0.00145254
 40
0.00145254
 40
0.00145254
 10
-13.75
 20
-1
 30
-44.6889
 10
-13.7473
 20
-0.905419
 30
-44.9142
 10
-13.7762
 20
-0.811685
 30
-45.1355
 10
-13.8366
 20
-0.718798
 30
-45.3529
 10
-13.8664
 20
-0.671698
 30
-45.4632
 10
-13.9113
 20
-0.62708
 30
-45.5672
 10
-13.9712
 20
-0.584943
 30
-45.665
 10
-14.0014
 20
-0.563727
 30
-45.7143
 10
-14.0392
 20
-0.54481
 30
-45.7581
 10
-14.0845
 20
-0.528191
 30
-45.7966
 10
-14.1304
 20
-0.512082
 30
-45.8338
 10
-14.1879
 20
-0.5
 30
-45.8617
 10
-14.25
 20
-0.5
 30
-45.8617
  0
LINE
  5
A66
330
A02
100
AcDbEntity
  8
Solid
100
AcDbLine
 10
-14.25
 20
-0.5
 30
-45.8617
 11
-14.25
 21
-0.5
 31
45.8617
  0
SPLINE
  5
A67
330
A02
100
AcDbEntity
  8
Solid
100
AcDbSpline
210
0
220
0
230
1
 70
8
 71
3
 72
17
 73
13
 74
0
 40
2.36508e-17
 40
2.36508e-17
 40
2.36508e-17
 40
2.36508e-17
 40
0.000184014
 40
0.000184014
 40
0.000184014
 40
0.000368028
 40
0.000368028
 40
0.000368028
 40
0.000736055
 40
0.000736055
 40
0.000736055
 40
0.00147211
 40
0.00147211
 40
0.00147211
 40
0.00147211
 10
-14.25
 20
-0.5
 30
45.8617
 10
-14.1876
 20
-0.5
 30
45.8617
 10
-14.13
 20
-0.512165
 30
45.8337
 10
-14.0839
 20
-0.528379
 30
45.7961
 10
-14.0386
 20
-0.54506
 30
45.7575
 10
-14.0008
 20
-0.56407
 30
45.7135
 10
-13.9705
 20
-0.585409
 30
45.6639
 10
-13.9105
 20
-0.627805
 30
45.5655
 10
-13.8657
 20
-0.672427
 30
45.4615
 10
-13.8362
 20
-0.719276
 30
45.3518
 10
-13.7762
 20
-0.811824
 30
45.1352
 10
-13.7474
 20
-0.905399
 30
44.9142
 10
-13.75
 20
-1
 30
44.6889
  0
ARC
  5
A68
330
A02
100
AcDbEntity
  8
Solid
100
AcDbCircle
 10
10.75
 20
1.5
 30
-46.6798
 40
0.456121
100
AcDbArc
 50
90
 51
90
  0
SPLINE
  5
A69
330
A02
100
AcDbEntity
  8
Solid
100
AcDbSpline
210
0
220
0
230
1
 70
8
 71
3
 72
20
 73
16
 74
0
 40
6.99289e-18
 40
6.99289e-18
 40
6.99289e-18
 40
6.99289e-18
 40
0.00195482
 40
0.00195482
 40
0.00195482
 40
0.00293223
 40
0.00293223
 40
0.00293223
 40
0.00342094
 40
0.00342094
 40
0.00342094
 40
0.00366529
 40
0.00366529
 40
0.00366529
 40
0.00390964
 40
0.00390964
 40
0.00390964
 40
0.00390964
 10
11.75
 20
1.5
 30
-42.8882
 10
11.7488
 20
1.58023
 30
-43.5378
 10
11.7087
 20
1.66131
 30
-44.1835
 10
11.5987
 20
1.74275
 30
-44.8223
 10
11.543
 20
1.78347
 30
-45.1417
 10
11.4701
 20
1.82447
 30
-45.4608
 10
11.356
 20
1.86382
 30
-45.7651
 10
11.3012
 20
1.88381
 30
-45.9196
 10
11.229
 20
1.90273
 30
-46.0654
 10
11.1394
 20
1.92056
 30
-46.2024
 10
11.094
 20
1.92956
 30
-46.2714
 10
11.0397
 20
1.9375
 30
-46.3324
 10
10.9766
 20
1.94441
 30
-46.3853
 10
10.913
 20
1.95108
 30
-46.4364
 10
10.8339
 20
1.95612
 30
-46.4749
 10
10.75
 20
1.95612
 30
-46.4749
  0
ARC
  5
A6A
330
A02
100
AcDbEntity
  8
Solid
100
AcDbCircle
 10
12.25
 20
1.5
 30
-42.8882
 40
0.5
100
AcDbArc
 50
90
 51
180
  0
SPLINE
  5
A6B
330
A02
100
AcDbEntity
  8
Solid
100
AcDbSpline
210
0
220
0
230
1
 70
8
 71
3
 72
17
 73
13
 74
0
 40
0
 40
0
 40
0
 40
0
 40
0.000548705
 40
0.000548705
 40
0.000548705
 40
0.00109741
 40
0.00109741
 40
0.00109741
 40
0.00219482
 40
0.00219482
 40
0.00219482
 40
0.00438964
 40
0.00438964
 40
0.00438964
 40
0.00438964
 10
10.75
 20
2
 30
-46.6798
 10
10.9369
 20
2
 30
-46.6803
 10
11.1102
 20
2
 30
-46.5917
 10
11.2479
 20
2
 30
-46.4718
 10
11.3872
 20
2
 30
-46.3517
 10
11.4973
 20
2
 30
-46.2031
 10
11.5911
 20
2
 30
-46.0464
 10
11.777
 20
2
 30
-45.7333
 10
11.9003
 20
2
 30
-45.3869
 10
11.9952
 20
2
 30
-45.0353
 10
12.1801
 20
2
 30
-44.3334
 10
12.2479
 20
2
 30
-43.6153
 10
12.25
 20
2
 30
-42.8882
  0
ARC
  5
A6C
330
A02
100
AcDbEntity
  8
Solid
100
AcDbCircle
 10
12.25
 20
1.5
 30
-42.8882
 40
0.5
100
AcDbArc
 50
90
 51
180
  0
LINE
  5
A6D
330
A02
100
AcDbEntity
  8
Solid
100
AcDbLine
 10
11.75
 20
1.5
 30
42.8882
 11
11.75
 21
1.5
 31
-42.8882
  0
ARC
  5
A6E
330
A02
100
AcDbEntity
  8
Solid
100
AcDbCircle
 10
12.25
 20
1.5
 30
42.8882
 40
0.5
100
AcDbArc
 50
90
 51
180
  0
LINE
  5
A6F
330
A02
100
AcDbEntity
  8
Solid
100
AcDbLine
 10
12.25
 20
2
 30
-42.8882
 11
12.25
 21
2
 31
42.8882
  0
ARC
  5
A70
330
A02
100
AcDbEntity
  8
Solid
100
AcDbCircle
 10
10.75
 20
1.5
 30
-46.6798
 40
0.456121
100
AcDbArc
 50
90
 51
90
  0
LINE
  5
A71
330
A02
100
AcDbEntity
  8
Solid
100
AcDbLine
 10
-10.75
 20
2
 30
-46.6798
 11
10.75
 21
2
 31
-46.6798
  0
ARC
  5
A72
330
A02
100
AcDbEntity
  8
Solid
100
AcDbCircle
 10
-10.75
 20
1.5
 30
-46.6798
 40
0.456121
100
AcDbArc
 50
90
 51
90
  0
LINE
  5
A73
330
A02
100
AcDbEntity
  8
Solid
100
AcDbLine
 10
10.75
 20
1.95612
 30
-46.4749
 11
-10.75
 21
1.95612
 31
-46.4749
  0
ARC
  5
A74
330
A02
100
AcDbEntity
  8
Solid
100
AcDbCircle
 10
12.25
 20
1.5
 30
42.8882
 40
0.5
100
AcDbArc
 50
90
 51
180
  0
SPLINE
  5
A75
330
A02
100
AcDbEntity
  8
Solid
100
AcDbSpline
210
0
220
0
230
1
 70
8
 71
3
 72
20
 73
16
 74
0
 40
1.73472e-18
 40
1.73472e-18
 40
1.73472e-18
 40
1.73472e-18
 40
0.000246909
 40
0.000246909
 40
0.000246909
 40
0.000493818
 40
0.000493818
 40
0.000493818
 40
0.000987635
 40
0.000987635
 40
0.000987635
 40
0.00197527
 40
0.00197527
 40
0.00197527
 40
0.00395054
 40
0.00395054
 40
0.00395054
 40
0.00395054
 10
10.75
 20
1.95612
 30
46.4749
 10
10.8335
 20
1.95612
 30
46.4749
 10
10.9109
 20
1.95124
 30
46.4376
 10
10.975
 20
1.94458
 30
46.3866
 10
11.0383
 20
1.9377
 30
46.3339
 10
11.0928
 20
1.92976
 30
46.273
 10
11.1383
 20
1.92077
 30
46.2039
 10
11.2281
 20
1.90295
 30
46.0671
 10
11.3003
 20
1.88409
 30
45.9217
 10
11.3549
 20
1.86418
 30
45.7679
 10
11.4691
 20
1.82492
 30
45.4643
 10
11.5424
 20
1.78385
 30
45.1447
 10
11.5983
 20
1.74304
 30
44.8246
 10
11.7087
 20
1.66141
 30
44.1843
 10
11.7488
 20
1.58025
 30
43.538
 10
11.75
 20
1.5
 30
42.8882
  0
ARC
  5
A76
330
A02
100
AcDbEntity
  8
Solid
100
AcDbCircle
 10
10.75
 20
1.5
 30
46.6798
 40
0.5
100
AcDbArc
 50
90
 51
90
  0
SPLINE
  5
A77
330
A02
100
AcDbEntity
  8
Solid
100
AcDbSpline
210
0
220
0
230
1
 70
8
 71
3
 72
17
 73
13
 74
0
 40
0
 40
0
 40
0
 40
0
 40
0.0021664
 40
0.0021664
 40
0.0021664
 40
0.0032496
 40
0.0032496
 40
0.0032496
 40
0.00379121
 40
0.00379121
 40
0.00379121
 40
0.00433281
 40
0.00433281
 40
0.00433281
 40
0.00433281
 10
12.25
 20
2
 30
42.8882
 10
12.2478
 20
2
 30
43.6153
 10
12.1802
 20
2
 30
44.3346
 10
11.9941
 20
2
 30
45.0395
 10
11.8993
 20
2
 30
45.3905
 10
11.7747
 20
2
 30
45.7382
 10
11.589
 20
2
 30
46.0499
 10
11.4958
 20
2
 30
46.2052
 10
11.385
 20
2
 30
46.3541
 10
11.2462
 20
2
 30
46.4732
 10
11.1083
 20
2
 30
46.5925
 10
10.9377
 20
2
 30
46.6797
 10
10.75
 20
2
 30
46.6798
  0
ARC
  5
A78
330
A02
100
AcDbEntity
  8
Solid
100
AcDbCircle
 10
-10.75
 20
1.5
 30
-46.6798
 40
0.456121
100
AcDbArc
 50
90
 51
90
  0
SPLINE
  5
A79
330
A02
100
AcDbEntity
  8
Solid
100
AcDbSpline
210
0
220
0
230
1
 70
8
 71
3
 72
17
 73
13
 74
0
 40
0
 40
0
 40
0
 40
0
 40
0.0021664
 40
0.0021664
 40
0.0021664
 40
0.0032496
 40
0.0032496
 40
0.0032496
 40
0.00379121
 40
0.00379121
 40
0.00379121
 40
0.00433281
 40
0.00433281
 40
0.00433281
 40
0.00433281
 10
-12.25
 20
2
 30
-42.8882
 10
-12.2478
 20
2
 30
-43.6153
 10
-12.1802
 20
2
 30
-44.3346
 10
-11.9941
 20
2
 30
-45.0395
 10
-11.8993
 20
2
 30
-45.3905
 10
-11.7747
 20
2
 30
-45.7382
 10
-11.589
 20
2
 30
-46.0499
 10
-11.4958
 20
2
 30
-46.2052
 10
-11.385
 20
2
 30
-46.3541
 10
-11.2462
 20
2
 30
-46.4732
 10
-11.1083
 20
2
 30
-46.5925
 10
-10.9377
 20
2
 30
-46.6797
 10
-10.75
 20
2
 30
-46.6798
  0
ARC
  5
A7A
330
A02
100
AcDbEntity
  8
Solid
100
AcDbCircle
 10
-12.25
 20
1.5
 30
-42.8882
 40
0.5
100
AcDbArc
 50
0
 51
90
  0
SPLINE
  5
A7B
330
A02
100
AcDbEntity
  8
Solid
100
AcDbSpline
210
0
220
0
230
1
 70
8
 71
3
 72
20
 73
16
 74
0
 40
1.73472e-18
 40
1.73472e-18
 40
1.73472e-18
 40
1.73472e-18
 40
0.000246909
 40
0.000246909
 40
0.000246909
 40
0.000493818
 40
0.000493818
 40
0.000493818
 40
0.000987635
 40
0.000987635
 40
0.000987635
 40
0.00197527
 40
0.00197527
 40
0.00197527
 40
0.00395054
 40
0.00395054
 40
0.00395054
 40
0.00395054
 10
-10.75
 20
1.95612
 30
-46.4749
 10
-10.8335
 20
1.95612
 30
-46.4749
 10
-10.9109
 20
1.95124
 30
-46.4376
 10
-10.975
 20
1.94458
 30
-46.3866
 10
-11.0383
 20
1.9377
 30
-46.3339
 10
-11.0928
 20
1.92976
 30
-46.273
 10
-11.1383
 20
1.92077
 30
-46.2039
 10
-11.2281
 20
1.90295
 30
-46.0671
 10
-11.3003
 20
1.88409
 30
-45.9217
 10
-11.3549
 20
1.86418
 30
-45.7679
 10
-11.4691
 20
1.82492
 30
-45.4643
 10
-11.5424
 20
1.78385
 30
-45.1447
 10
-11.5983
 20
1.74304
 30
-44.8246
 10
-11.7087
 20
1.66141
 30
-44.1843
 10
-11.7488
 20
1.58025
 30
-43.538
 10
-11.75
 20
1.5
 30
-42.8882
  0
ARC
  5
A7C
330
A02
100
AcDbEntity
  8
Solid
100
AcDbCircle
 10
10.75
 20
1.5
 30
46.6798
 40
0.5
100
AcDbArc
 50
90
 51
90
  0
LINE
  5
A7D
330
A02
100
AcDbEntity
  8
Solid
100
AcDbLine
 10
-10.75
 20
1.95612
 30
46.4749
 11
10.75
 21
1.95612
 31
46.4749
  0
ARC
  5
A7E
330
A02
100
AcDbEntity
  8
Solid
100
AcDbCircle
 10
-10.75
 20
1.5
 30
46.6798
 40
0.5
100
AcDbArc
 50
90
 51
90
  0
LINE
  5
A7F
330
A02
100
AcDbEntity
  8
Solid
100
AcDbLine
 10
10.75
 20
2
 30
46.6798
 11
-10.75
 21
2
 31
46.6798
  0
ARC
  5
A80
330
A02
100
AcDbEntity
  8
Solid
100
AcDbCircle
 10
-12.25
 20
1.5
 30
-42.8882
 40
0.5
100
AcDbArc
 50
0
 51
90
  0
LINE
  5
A81
330
A02
100
AcDbEntity
  8
Solid
100
AcDbLine
 10
-12.25
 20
2
 30
42.8882
 11
-12.25
 21
2
 31
-42.8882
  0
ARC
  5
A82
330
A02
100
AcDbEntity
  8
Solid
100
AcDbCircle
 10
-12.25
 20
1.5
 30
42.8882
 40
0.5
100
AcDbArc
 50
0
 51
90
  0
LINE
  5
A83
330
A02
100
AcDbEntity
  8
Solid
100
AcDbLine
 10
-11.75
 20
1.5
 30
-42.8882
 11
-11.75
 21
1.5
 31
42.8882
  0
ARC
  5
A84
330
A02
100
AcDbEntity
  8
Solid
100
AcDbCircle
 10
-10.75
 20
1.5
 30
46.6798
 40
0.5
100
AcDbArc
 50
90
 51
90
  0
SPLINE
  5
A85
330
A02
100
AcDbEntity
  8
Solid
100
AcDbSpline
210
0
220
0
230
1
 70
8
 71
3
 72
20
 73
16
 74
0
 40
6.99289e-18
 40
6.99289e-18
 40
6.99289e-18
 40
6.99289e-18
 40
0.00195482
 40
0.00195482
 40
0.00195482
 40
0.00293223
 40
0.00293223
 40
0.00293223
 40
0.00342094
 40
0.00342094
 40
0.00342094
 40
0.00366529
 40
0.00366529
 40
0.00366529
 40
0.00390964
 40
0.00390964
 40
0.00390964
 40
0.00390964
 10
-11.75
 20
1.5
 30
42.8882
 10
-11.7488
 20
1.58023
 30
43.5378
 10
-11.7087
 20
1.66131
 30
44.1835
 10
-11.5987
 20
1.74275
 30
44.8223
 10
-11.543
 20
1.78347
 30
45.1417
 10
-11.4701
 20
1.82447
 30
45.4608
 10
-11.356
 20
1.86382
 30
45.7651
 10
-11.3012
 20
1.88381
 30
45.9196
 10
-11.229
 20
1.90273
 30
46.0654
 10
-11.1394
 20
1.92056
 30
46.2024
 10
-11.094
 20
1.92956
 30
46.2714
 10
-11.0397
 20
1.9375
 30
46.3324
 10
-10.9766
 20
1.94441
 30
46.3853
 10
-10.913
 20
1.95108
 30
46.4364
 10
-10.8339
 20
1.95612
 30
46.4749
 10
-10.75
 20
1.95612
 30
46.4749
  0
ARC
  5
A86
330
A02
100
AcDbEntity
  8
Solid
100
AcDbCircle
 10
-12.25
 20
1.5
 30
42.8882
 40
0.5
100
AcDbArc
 50
0
 51
90
  0
SPLINE
  5
A87
330
A02
100
AcDbEntity
  8
Solid
100
AcDbSpline
210
0
220
0
230
1
 70
8
 71
3
 72
17
 73
13
 74
0
 40
0
 40
0
 40
0
 40
0
 40
0.000548705
 40
0.000548705
 40
0.000548705
 40
0.00109741
 40
0.00109741
 40
0.00109741
 40
0.00219482
 40
0.00219482
 40
0.00219482
 40
0.00438964
 40
0.00438964
 40
0.00438964
 40
0.00438964
 10
-10.75
 20
2
 30
46.6798
 10
-10.9369
 20
2
 30
46.6803
 10
-11.1102
 20
2
 30
46.5917
 10
-11.2479
 20
2
 30
46.4718
 10
-11.3872
 20
2
 30
46.3517
 10
-11.4973
 20
2
 30
46.2031
 10
-11.5911
 20
2
 30
46.0464
 10
-11.777
 20
2
 30
45.7333
 10
-11.9003
 20
2
 30
45.3869
 10
-11.9952
 20
2
 30
45.0353
 10
-12.1801
 20
2
 30
44.3334
 10
-12.2479
 20
2
 30
43.6153
 10
-12.25
 20
2
 30
42.8882
  0
ARC
  5
A88
330
A02
100
AcDbEntity
  8
Solid
100
AcDbCircle
 10
0
 20
-0.3
 30
53.3399
 40
2.14313e-16
100
AcDbArc
 50
0
 51
180
  0
LINE
  5
A89
330
A02
100
AcDbEntity
  8
Solid
100
AcDbLine
 10
0
 20
-0.5
 30
55.0899
 11
0
 21
-0.3
 31
55.0899
  0
ARC
  5
A8A
330
A02
100
AcDbEntity
  8
Solid
100
AcDbCircle
 10
0
 20
-0.5
 30
53.3399
 40
0
100
AcDbArc
 50
0
 51
0
  0
LINE
  5
A8B
330
A02
100
AcDbEntity
  8
Solid
100
AcDbLine
 10
2.14313e-16
 20
-0.5
 30
51.5899
 11
2.14313e-16
 21
-0.3
 31
51.5899
  0
ARC
  5
A8C
330
A02
100
AcDbEntity
  8
Solid
100
AcDbCircle
 10
0
 20
-0.3
 30
-53.3399
 40
2.14313e-16
100
AcDbArc
 50
0
 51
180
  0
LINE
  5
A8D
330
A02
100
AcDbEntity
  8
Solid
100
AcDbLine
 10
0
 20
-0.5
 30
-51.5899
 11
0
 21
-0.3
 31
-51.5899
  0
ARC
  5
A8E
330
A02
100
AcDbEntity
  8
Solid
100
AcDbCircle
 10
0
 20
-0.5
 30
-53.3399
 40
0
100
AcDbArc
 50
0
 51
0
  0
LINE
  5
A8F
330
A02
100
AcDbEntity
  8
Solid
100
AcDbLine
 10
2.14313e-16
 20
-0.5
 30
-55.0899
 11
2.14313e-16
 21
-0.3
 31
-55.0899
  0
ARC
  5
A90
330
A02
100
AcDbEntity
  8
Solid
100
AcDbCircle
 10
0
 20
2
 30
53.3399
 40
0
100
AcDbArc
 50
0
 51
0
  0
LINE
  5
A91
330
A02
100
AcDbEntity
  8
Solid
100
AcDbLine
 10
0
 20
-0.3
 30
55.0899
 11
0
 21
2
 31
57.0899
  0
ARC
  5
A92
330
A02
100
AcDbEntity
  8
Solid
100
AcDbCircle
 10
0
 20
-0.3
 30
53.3399
 40
2.14313e-16
100
AcDbArc
 50
0
 51
180
  0
LINE
  5
A93
330
A02
100
AcDbEntity
  8
Solid
100
AcDbLine
 10
2.14313e-16
 20
-0.3
 30
51.5899
 11
4.59243e-16
 21
2
 31
49.5899
  0
ARC
  5
A94
330
A02
100
AcDbEntity
  8
Solid
100
AcDbCircle
 10
0
 20
2
 30
-53.3399
 40
0
100
AcDbArc
 50
0
 51
0
  0
LINE
  5
A95
330
A02
100
AcDbEntity
  8
Solid
100
AcDbLine
 10
0
 20
-0.3
 30
-51.5899
 11
0
 21
2
 31
-49.5899
  0
ARC
  5
A96
330
A02
100
AcDbEntity
  8
Solid
100
AcDbCircle
 10
0
 20
-0.3
 30
-53.3399
 40
2.14313e-16
100
AcDbArc
 50
0
 51
180
  0
LINE
  5
A97
330
A02
100
AcDbEntity
  8
Solid
100
AcDbLine
 10
2.14313e-16
 20
-0.3
 30
-55.0899
 11
4.59243e-16
 21
2
 31
-57.0899
  0
ENDSEC
  0
SECTION
  2
OBJECTS
  0
DICTIONARY
  5
F000
330
0
100
AcDbDictionary
  3
ACAD_GROUP
350
F001
  0
DICTIONARY
  5
F001
330
F000
100
AcDbDictionary
  0
ENDSEC
  0
EOF